ISO-10303-21;
HEADER;
FILE_DESCRIPTION (( 'STEP AP214' ),
    '1' );
FILE_NAME ('81314.STEP',
    '2023-06-23T00:26:17',
    ( '' ),
    ( '' ),
    'SwSTEP 2.0',
    'SolidWorks 2023',
    '' );
FILE_SCHEMA (( 'AUTOMOTIVE_DESIGN' ));
ENDSEC;

DATA;
#1 = EDGE_CURVE ( 'NONE', #183, #299, #101, .T. ) ;
#2 = AXIS2_PLACEMENT_3D ( 'NONE', #109, #7, #136 ) ;
#3 = UNCERTAINTY_MEASURE_WITH_UNIT (LENGTH_MEASURE( 1.000000000000000082E-05 ), #74, 'distance_accuracy_value', 'NONE');
#4 = DIMENSIONAL_EXPONENTS ( 1.000000000000000000, 0.000000000000000000, 0.000000000000000000, 0.000000000000000000, 0.000000000000000000, 0.000000000000000000, 0.000000000000000000 ) ;
#5 = DIRECTION ( 'NONE',  ( 0.000000000000000000, -1.000000000000000000, -0.000000000000000000 ) ) ;
#6 = DIRECTION ( 'NONE',  ( -1.000000000000000000, 0.000000000000000000, 0.000000000000000000 ) ) ;
#7 = DIRECTION ( 'NONE',  ( 1.049697256412016823E-16, 1.000000000000000000, -0.000000000000000000 ) ) ;
#8 =( GEOMETRIC_REPRESENTATION_CONTEXT ( 3 ) GLOBAL_UNCERTAINTY_ASSIGNED_CONTEXT ( ( #3 ) ) GLOBAL_UNIT_ASSIGNED_CONTEXT ( ( #74, #62, #133 ) ) REPRESENTATION_CONTEXT ( 'NONE', 'WORKASPACE' ) );
#9 = DIMENSIONAL_EXPONENTS ( 1.000000000000000000, 0.000000000000000000, 0.000000000000000000, 0.000000000000000000, 0.000000000000000000, 0.000000000000000000, 0.000000000000000000 ) ;
#10 = DIRECTION ( 'NONE',  ( 1.049697256412016700E-16, 1.000000000000000000, -0.000000000000000000 ) ) ;
#11 = DIRECTION ( 'NONE',  ( 0.000000000000000000, 0.000000000000000000, -1.000000000000000000 ) ) ;
#12 = ORIENTED_EDGE ( 'NONE', *, *, #279, .F. ) ;
#13 = EDGE_CURVE ( 'NONE', #183, #134, #308, .T. ) ;
#14 = CIRCLE ( 'NONE', #2, 0.1875000000000000278 ) ;
#15 = LENGTH_MEASURE_WITH_UNIT ( LENGTH_MEASURE( 0.02539999999999999897 ), #78 );
#16 = EDGE_LOOP ( 'NONE', ( #104, #163 ) ) ;
#17 = UNCERTAINTY_MEASURE_WITH_UNIT (LENGTH_MEASURE( 1.000000000000000082E-05 ), #98, 'distance_accuracy_value', 'NONE');
#18 = MANIFOLD_SOLID_BREP ( 'Revolve - Tool Body (Straight Shanked)', #155 ) ;
#19 = DIRECTION ( 'NONE',  ( -0.000000000000000000, -1.000000000000000000, -0.000000000000000000 ) ) ;
#20 = SURFACE_SIDE_STYLE ('',( #283 ) ) ;
#21 = STYLED_ITEM ( 'NONE', ( #218 ), #25 ) ;
#22 = AXIS2_PLACEMENT_3D ( 'NONE', #56, #179, #6 ) ;
#23 = FILL_AREA_STYLE ('',( #220 ) ) ;
#24 = DIRECTION ( 'NONE',  ( -0.000000000000000000, -1.000000000000000000, -0.000000000000000000 ) ) ;
#25 = ADVANCED_FACE ( 'NONE', ( #237 ), #213, .T. ) ;
#26 = CARTESIAN_POINT ( 'NONE',  ( 0.000000000000000000, 0.000000000000000000, 0.000000000000000000 ) ) ;
#27 = MECHANICAL_DESIGN_GEOMETRIC_PRESENTATION_REPRESENTATION (  '', ( #127 ), #226 ) ;
#28 =( NAMED_UNIT ( * ) PLANE_ANGLE_UNIT ( ) SI_UNIT ( $, .RADIAN. ) );
#29 = EDGE_CURVE ( 'NONE', #134, #183, #48, .T. ) ;
#30 = PLANE ( 'NONE',  #151 ) ;
#31 = FILL_AREA_STYLE ('',( #245 ) ) ;
#32 =( GEOMETRIC_REPRESENTATION_CONTEXT ( 3 ) GLOBAL_UNCERTAINTY_ASSIGNED_CONTEXT ( ( #167 ) ) GLOBAL_UNIT_ASSIGNED_CONTEXT ( ( #128, #28, #199 ) ) REPRESENTATION_CONTEXT ( 'NONE', 'WORKASPACE' ) );
#33 = DIRECTION ( 'NONE',  ( 0.000000000000000000, 0.000000000000000000, -1.000000000000000000 ) ) ;
#34 = SURFACE_STYLE_USAGE ( .BOTH. , #110 ) ;
#35 = DIRECTION ( 'NONE',  ( 1.000000000000000000, -1.049697256412016700E-16, 0.000000000000000000 ) ) ;
#36 = ORIENTED_EDGE ( 'NONE', *, *, #272, .T. ) ;
#37 = FACE_OUTER_BOUND ( 'NONE', #255, .T. ) ;
#38 = ORIENTED_EDGE ( 'NONE', *, *, #29, .F. ) ;
#39 = VECTOR ( 'NONE', #106, 39.37007874015748143 ) ;
#40 = AXIS2_PLACEMENT_3D ( 'NONE', #293, #117, #90 ) ;
#41 = SURFACE_STYLE_USAGE ( .BOTH. , #254 ) ;
#42 = ORIENTED_EDGE ( 'NONE', *, *, #272, .F. ) ;
#43 = FACE_OUTER_BOUND ( 'NONE', #16, .T. ) ;
#44 = ORIENTED_EDGE ( 'NONE', *, *, #165, .T. ) ;
#45 = SURFACE_SIDE_STYLE ('',( #170 ) ) ;
#46 = COLOUR_RGB ( '',0.7921568627450980005, 0.8196078431372548767, 0.9333333333333333481 ) ;
#47 = ORIENTED_EDGE ( 'NONE', *, *, #1, .F. ) ;
#48 = CIRCLE ( 'NONE', #303, 0.1875000000000000278 ) ;
#49 = CARTESIAN_POINT ( 'NONE',  ( 0.000000000000000000, 0.000000000000000000, -0.1875000000000000278 ) ) ;
#50 = PRESENTATION_STYLE_ASSIGNMENT (( #124 ) ) ;
#51 =( GEOMETRIC_REPRESENTATION_CONTEXT ( 3 ) GLOBAL_UNCERTAINTY_ASSIGNED_CONTEXT ( ( #112 ) ) GLOBAL_UNIT_ASSIGNED_CONTEXT ( ( #113, #249, #116 ) ) REPRESENTATION_CONTEXT ( 'NONE', 'WORKASPACE' ) );
#52 =( NAMED_UNIT ( * ) PLANE_ANGLE_UNIT ( ) SI_UNIT ( $, .RADIAN. ) );
#53 = PRESENTATION_STYLE_ASSIGNMENT (( #219 ) ) ;
#54 = ADVANCED_BREP_SHAPE_REPRESENTATION ( '81314', ( #225, #18, #40 ), #177 ) ;
#55 = CARTESIAN_POINT ( 'NONE',  ( 0.000000000000000000, 0.000000000000000000, 0.000000000000000000 ) ) ;
#56 = CARTESIAN_POINT ( 'NONE',  ( 3.032960542342103792E-32, 0.7499999999999998890, 0.000000000000000000 ) ) ;
#57 = PRESENTATION_LAYER_ASSIGNMENT (  '', '', ( #126 ) ) ;
#58 = AXIS2_PLACEMENT_3D ( 'NONE', #86, #203, #33 ) ;
#59 = AXIS2_PLACEMENT_3D ( 'NONE', #26, #282, #80 ) ;
#60 =( NAMED_UNIT ( * ) SI_UNIT ( $, .STERADIAN. ) SOLID_ANGLE_UNIT ( ) );
#61 = DIRECTION ( 'NONE',  ( 1.049697256412016823E-16, 1.000000000000000000, -0.000000000000000000 ) ) ;
#62 =( NAMED_UNIT ( * ) PLANE_ANGLE_UNIT ( ) SI_UNIT ( $, .RADIAN. ) );
#63 = AXIS2_PLACEMENT_3D ( 'NONE', #99, #191, #235 ) ;
#64 = CYLINDRICAL_SURFACE ( 'NONE', #216, 0.1874999999999999167 ) ;
#65 =( LENGTH_UNIT ( ) NAMED_UNIT ( * ) SI_UNIT ( $, .METRE. ) );
#66 = ADVANCED_FACE ( 'NONE', ( #242 ), #30, .T. ) ;
#67 = CARTESIAN_POINT ( 'NONE',  ( 0.1875000000000000833, 2.500000000000000000, 2.296212748401286185E-17 ) ) ;
#68 = EDGE_LOOP ( 'NONE', ( #185, #295 ) ) ;
#69 = DIRECTION ( 'NONE',  ( -1.000000000000000000, 1.049697256412016700E-16, 0.000000000000000000 ) ) ;
#70 = MECHANICAL_DESIGN_GEOMETRIC_PRESENTATION_REPRESENTATION (  '', ( #21 ), #100 ) ;
#71 = ORIENTED_EDGE ( 'NONE', *, *, #279, .T. ) ;
#72 = PRESENTATION_LAYER_ASSIGNMENT (  '', '', ( #108 ) ) ;
#73 = ADVANCED_FACE ( 'NONE', ( #209 ), #212, .T. ) ;
#74 =( CONVERSION_BASED_UNIT ( 'INCH', #96 ) LENGTH_UNIT ( ) NAMED_UNIT ( #157 ) );
#75 = EDGE_LOOP ( 'NONE', ( #123, #238, #189, #292 ) ) ;
#76 =( NAMED_UNIT ( * ) PLANE_ANGLE_UNIT ( ) SI_UNIT ( $, .RADIAN. ) );
#77 = PRODUCT_DEFINITION_SHAPE ( 'NONE', 'NONE',  #111 ) ;
#78 =( LENGTH_UNIT ( ) NAMED_UNIT ( * ) SI_UNIT ( $, .METRE. ) );
#79 = PRESENTATION_LAYER_ASSIGNMENT (  '', '', ( #187 ) ) ;
#80 = DIRECTION ( 'NONE',  ( 0.000000000000000000, 0.000000000000000000, -1.000000000000000000 ) ) ;
#81 = EDGE_CURVE ( 'NONE', #196, #210, #14, .T. ) ;
#82 = CARTESIAN_POINT ( 'NONE',  ( 1.836970198721029688E-16, 2.500000000000000000, 0.000000000000000000 ) ) ;
#83 =( GEOMETRIC_REPRESENTATION_CONTEXT ( 3 ) GLOBAL_UNCERTAINTY_ASSIGNED_CONTEXT ( ( #114 ) ) GLOBAL_UNIT_ASSIGNED_CONTEXT ( ( #102, #166, #192 ) ) REPRESENTATION_CONTEXT ( 'NONE', 'WORKASPACE' ) );
#84 = STYLED_ITEM ( 'NONE', ( #264 ), #66 ) ;
#85 =( NAMED_UNIT ( * ) PLANE_ANGLE_UNIT ( ) SI_UNIT ( $, .RADIAN. ) );
#86 = CARTESIAN_POINT ( 'NONE',  ( 0.000000000000000000, 0.000000000000000000, 0.000000000000000000 ) ) ;
#87 = CARTESIAN_POINT ( 'NONE',  ( 0.000000000000000000, 0.000000000000000000, 0.000000000000000000 ) ) ;
#88 = CARTESIAN_POINT ( 'NONE',  ( 0.000000000000000000, 0.000000000000000000, 0.000000000000000000 ) ) ;
#89 = AXIS2_PLACEMENT_3D ( 'NONE', #256, #252, #93 ) ;
#90 = DIRECTION ( 'NONE',  ( 1.000000000000000000, 0.000000000000000000, 0.000000000000000000 ) ) ;
#91 = DIMENSIONAL_EXPONENTS ( 1.000000000000000000, 0.000000000000000000, 0.000000000000000000, 0.000000000000000000, 0.000000000000000000, 0.000000000000000000, 0.000000000000000000 ) ;
#92 = EDGE_LOOP ( 'NONE', ( #138, #38 ) ) ;
#93 = DIRECTION ( 'NONE',  ( -1.000000000000000000, 0.000000000000000000, 0.000000000000000000 ) ) ;
#94 = EDGE_LOOP ( 'NONE', ( #190, #146, #305, #47 ) ) ;
#95 = CYLINDRICAL_SURFACE ( 'NONE', #97, 0.1875000000000000278 ) ;
#96 = LENGTH_MEASURE_WITH_UNIT ( LENGTH_MEASURE( 0.02539999999999999897 ), #65 );
#97 = AXIS2_PLACEMENT_3D ( 'NONE', #88, #182, #119 ) ;
#98 =( CONVERSION_BASED_UNIT ( 'INCH', #172 ) LENGTH_UNIT ( ) NAMED_UNIT ( #4 ) );
#99 = CARTESIAN_POINT ( 'NONE',  ( 0.000000000000000000, 0.7500000000000001110, 0.000000000000000000 ) ) ;
#100 =( GEOMETRIC_REPRESENTATION_CONTEXT ( 3 ) GLOBAL_UNCERTAINTY_ASSIGNED_CONTEXT ( ( #17 ) ) GLOBAL_UNIT_ASSIGNED_CONTEXT ( ( #98, #52, #277 ) ) REPRESENTATION_CONTEXT ( 'NONE', 'WORKASPACE' ) );
#101 = LINE ( 'NONE', #49, #215 ) ;
#102 =( CONVERSION_BASED_UNIT ( 'INCH', #15 ) LENGTH_UNIT ( ) NAMED_UNIT ( #118 ) );
#103 = ADVANCED_FACE ( 'NONE', ( #43 ), #164, .F. ) ;
#104 = ORIENTED_EDGE ( 'NONE', *, *, #81, .F. ) ;
#105 = CLOSED_SHELL ( 'NONE', ( #173, #25, #147, #66 ) ) ;
#106 = DIRECTION ( 'NONE',  ( -0.000000000000000000, -1.000000000000000000, -0.000000000000000000 ) ) ;
#107 = CARTESIAN_POINT ( 'NONE',  ( 0.1875000000000000278, 2.500000000000000000, 2.296212748401286493E-17 ) ) ;
#108 = STYLED_ITEM ( 'NONE', ( #141 ), #147 ) ;
#109 = CARTESIAN_POINT ( 'NONE',  ( 3.032960542342103792E-32, 0.7499999999999998890, 0.000000000000000000 ) ) ;
#110 = SURFACE_SIDE_STYLE ('',( #156 ) ) ;
#111 = PRODUCT_DEFINITION ( 'UNKNOWN', '', #208, #229 ) ;
#112 = UNCERTAINTY_MEASURE_WITH_UNIT (LENGTH_MEASURE( 1.000000000000000082E-05 ), #113, 'distance_accuracy_value', 'NONE');
#113 =( CONVERSION_BASED_UNIT ( 'INCH', #140 ) LENGTH_UNIT ( ) NAMED_UNIT ( #91 ) );
#114 = UNCERTAINTY_MEASURE_WITH_UNIT (LENGTH_MEASURE( 1.000000000000000082E-05 ), #102, 'distance_accuracy_value', 'NONE');
#115 = DIMENSIONAL_EXPONENTS ( 1.000000000000000000, 0.000000000000000000, 0.000000000000000000, 0.000000000000000000, 0.000000000000000000, 0.000000000000000000, 0.000000000000000000 ) ;
#116 =( NAMED_UNIT ( * ) SI_UNIT ( $, .STERADIAN. ) SOLID_ANGLE_UNIT ( ) );
#117 = DIRECTION ( 'NONE',  ( 0.000000000000000000, 0.000000000000000000, 1.000000000000000000 ) ) ;
#118 = DIMENSIONAL_EXPONENTS ( 1.000000000000000000, 0.000000000000000000, 0.000000000000000000, 0.000000000000000000, 0.000000000000000000, 0.000000000000000000, 0.000000000000000000 ) ;
#119 = DIRECTION ( 'NONE',  ( 0.000000000000000000, 0.000000000000000000, -1.000000000000000000 ) ) ;
#120 = DIRECTION ( 'NONE',  ( 0.000000000000000000, 0.000000000000000000, -1.000000000000000000 ) ) ;
#121 = APPLICATION_CONTEXT ( 'automotive_design' ) ;
#122 = AXIS2_PLACEMENT_3D ( 'NONE', #243, #248, #223 ) ;
#123 = ORIENTED_EDGE ( 'NONE', *, *, #207, .F. ) ;
#124 = SURFACE_STYLE_USAGE ( .BOTH. , #45 ) ;
#125 = FILL_AREA_STYLE ('',( #197 ) ) ;
#126 = STYLED_ITEM ( 'NONE', ( #50 ), #18 ) ;
#127 = STYLED_ITEM ( 'NONE', ( #174 ), #225 ) ;
#128 =( CONVERSION_BASED_UNIT ( 'INCH', #154 ) LENGTH_UNIT ( ) NAMED_UNIT ( #275 ) );
#129 =( LENGTH_UNIT ( ) NAMED_UNIT ( * ) SI_UNIT ( $, .METRE. ) );
#130 = CARTESIAN_POINT ( 'NONE',  ( 1.836970198721029688E-16, 2.500000000000000000, 0.000000000000000000 ) ) ;
#131 = SURFACE_SIDE_STYLE ('',( #221 ) ) ;
#132 = ADVANCED_FACE ( 'NONE', ( #37 ), #211, .F. ) ;
#133 =( NAMED_UNIT ( * ) SI_UNIT ( $, .STERADIAN. ) SOLID_ANGLE_UNIT ( ) );
#134 = VERTEX_POINT ( 'NONE', #162 ) ;
#135 = ORIENTED_EDGE ( 'NONE', *, *, #143, .F. ) ;
#136 = DIRECTION ( 'NONE',  ( -1.000000000000000000, 0.000000000000000000, 0.000000000000000000 ) ) ;
#137 = APPLICATION_PROTOCOL_DEFINITION ( 'draft international standard', 'automotive_design', 1998, #121 ) ;
#138 = ORIENTED_EDGE ( 'NONE', *, *, #13, .F. ) ;
#139 = CIRCLE ( 'NONE', #122, 0.1874999999999998335 ) ;
#140 = LENGTH_MEASURE_WITH_UNIT ( LENGTH_MEASURE( 0.02539999999999999897 ), #285 );
#141 = PRESENTATION_STYLE_ASSIGNMENT (( #41 ) ) ;
#142 = EDGE_LOOP ( 'NONE', ( #135, #270, #44, #42 ) ) ;
#143 = EDGE_CURVE ( 'NONE', #210, #198, #297, .T. ) ;
#144 = CIRCLE ( 'NONE', #59, 0.1875000000000000278 ) ;
#145 =( NAMED_UNIT ( * ) SI_UNIT ( $, .STERADIAN. ) SOLID_ANGLE_UNIT ( ) );
#146 = ORIENTED_EDGE ( 'NONE', *, *, #207, .T. ) ;
#147 = ADVANCED_FACE ( 'NONE', ( #158 ), #95, .T. ) ;
#148 = COLOUR_RGB ( '',1.000000000000000000, 0.000000000000000000, 0.000000000000000000 ) ;
#149 = VERTEX_POINT ( 'NONE', #280 ) ;
#150 = VERTEX_POINT ( 'NONE', #296 ) ;
#151 = AXIS2_PLACEMENT_3D ( 'NONE', #87, #5, #11 ) ;
#152 = CARTESIAN_POINT ( 'NONE',  ( 0.1875000000000000278, 0.7499999999999998890, 2.296212748401286493E-17 ) ) ;
#153 = EDGE_CURVE ( 'NONE', #150, #299, #169, .T. ) ;
#154 = LENGTH_MEASURE_WITH_UNIT ( LENGTH_MEASURE( 0.02539999999999999897 ), #246 );
#155 = CLOSED_SHELL ( 'NONE', ( #232, #103, #73, #132 ) ) ;
#156 = SURFACE_STYLE_FILL_AREA ( #268 ) ;
#157 = DIMENSIONAL_EXPONENTS ( 1.000000000000000000, 0.000000000000000000, 0.000000000000000000, 0.000000000000000000, 0.000000000000000000, 0.000000000000000000, 0.000000000000000000 ) ;
#158 = FACE_OUTER_BOUND ( 'NONE', #75, .T. ) ;
#159 = PRODUCT_CONTEXT ( 'NONE', #251, 'mechanical' ) ;
#160 = EDGE_CURVE ( 'NONE', #299, #150, #144, .T. ) ;
#161 = VECTOR ( 'NONE', #284, 39.37007874015748143 ) ;
#162 = CARTESIAN_POINT ( 'NONE',  ( 2.296212748401287726E-17, 0.7500000000000001110, 0.1875000000000000278 ) ) ;
#163 = ORIENTED_EDGE ( 'NONE', *, *, #200, .F. ) ;
#164 = PLANE ( 'NONE',  #271 ) ;
#165 = EDGE_CURVE ( 'NONE', #196, #149, #171, .T. ) ;
#166 =( NAMED_UNIT ( * ) PLANE_ANGLE_UNIT ( ) SI_UNIT ( $, .RADIAN. ) );
#167 = UNCERTAINTY_MEASURE_WITH_UNIT (LENGTH_MEASURE( 1.000000000000000082E-05 ), #128, 'distance_accuracy_value', 'NONE');
#168 = CARTESIAN_POINT ( 'NONE',  ( 0.000000000000000000, 0.7500000000000001110, 0.000000000000000000 ) ) ;
#169 = CIRCLE ( 'NONE', #260, 0.1875000000000000278 ) ;
#170 = SURFACE_STYLE_FILL_AREA ( #281 ) ;
#171 = LINE ( 'NONE', #307, #161 ) ;
#172 = LENGTH_MEASURE_WITH_UNIT ( LENGTH_MEASURE( 0.02539999999999999897 ), #214 );
#173 = ADVANCED_FACE ( 'NONE', ( #195 ), #261, .T. ) ;
#174 = PRESENTATION_STYLE_ASSIGNMENT (( #34 ) ) ;
#175 = DIRECTION ( 'NONE',  ( -1.000000000000000000, 0.000000000000000000, 0.000000000000000000 ) ) ;
#176 = MECHANICAL_DESIGN_GEOMETRIC_PRESENTATION_REPRESENTATION (  '', ( #84 ), #51 ) ;
#177 =( GEOMETRIC_REPRESENTATION_CONTEXT ( 3 ) GLOBAL_UNCERTAINTY_ASSIGNED_CONTEXT ( ( #244 ) ) GLOBAL_UNIT_ASSIGNED_CONTEXT ( ( #300, #76, #145 ) ) REPRESENTATION_CONTEXT ( 'NONE', 'WORKASPACE' ) );
#178 = DIRECTION ( 'NONE',  ( 1.049697256412016823E-16, 1.000000000000000000, -0.000000000000000000 ) ) ;
#179 = DIRECTION ( 'NONE',  ( 1.049697256412016823E-16, 1.000000000000000000, -0.000000000000000000 ) ) ;
#180 = AXIS2_PLACEMENT_3D ( 'NONE', #233, #306, #259 ) ;
#181 = COLOUR_RGB ( '',0.7921568627450980005, 0.8196078431372548767, 0.9333333333333333481 ) ;
#182 = DIRECTION ( 'NONE',  ( -0.000000000000000000, -1.000000000000000000, -0.000000000000000000 ) ) ;
#183 = VERTEX_POINT ( 'NONE', #205 ) ;
#184 = FILL_AREA_STYLE ('',( #291 ) ) ;
#185 = ORIENTED_EDGE ( 'NONE', *, *, #160, .T. ) ;
#186 = ORIENTED_EDGE ( 'NONE', *, *, #143, .T. ) ;
#187 = STYLED_ITEM ( 'NONE', ( #53 ), #173 ) ;
#188 = SURFACE_STYLE_FILL_AREA ( #184 ) ;
#189 = ORIENTED_EDGE ( 'NONE', *, *, #1, .T. ) ;
#190 = ORIENTED_EDGE ( 'NONE', *, *, #13, .T. ) ;
#191 = DIRECTION ( 'NONE',  ( 0.000000000000000000, 1.000000000000000000, 0.000000000000000000 ) ) ;
#192 =( NAMED_UNIT ( * ) SI_UNIT ( $, .STERADIAN. ) SOLID_ANGLE_UNIT ( ) );
#193 = VECTOR ( 'NONE', #204, 39.37007874015748143 ) ;
#194 = SURFACE_SIDE_STYLE ('',( #302 ) ) ;
#195 = FACE_OUTER_BOUND ( 'NONE', #94, .T. ) ;
#196 = VERTEX_POINT ( 'NONE', #286 ) ;
#197 = FILL_AREA_STYLE_COLOUR ( '', #309 ) ;
#198 = VERTEX_POINT ( 'NONE', #107 ) ;
#199 =( NAMED_UNIT ( * ) SI_UNIT ( $, .STERADIAN. ) SOLID_ANGLE_UNIT ( ) );
#200 = EDGE_CURVE ( 'NONE', #210, #196, #265, .T. ) ;
#201 = PRESENTATION_LAYER_ASSIGNMENT (  '', '', ( #21 ) ) ;
#202 = LENGTH_MEASURE_WITH_UNIT ( LENGTH_MEASURE( 0.02539999999999999897 ), #129 );
#203 = DIRECTION ( 'NONE',  ( -0.000000000000000000, -1.000000000000000000, -0.000000000000000000 ) ) ;
#204 = DIRECTION ( 'NONE',  ( 1.049697256412016700E-16, 1.000000000000000000, -0.000000000000000000 ) ) ;
#205 = CARTESIAN_POINT ( 'NONE',  ( 0.000000000000000000, 0.7500000000000001110, -0.1875000000000000278 ) ) ;
#206 = PRODUCT ( '81314', '81314', '', ( #159 ) ) ;
#207 = EDGE_CURVE ( 'NONE', #134, #150, #222, .T. ) ;
#208 = PRODUCT_DEFINITION_FORMATION_WITH_SPECIFIED_SOURCE ( 'ANY', '', #206, .NOT_KNOWN. ) ;
#209 = FACE_OUTER_BOUND ( 'NONE', #142, .T. ) ;
#210 = VERTEX_POINT ( 'NONE', #152 ) ;
#211 = PLANE ( 'NONE',  #288 ) ;
#212 = CYLINDRICAL_SURFACE ( 'NONE', #89, 0.1874999999999999167 ) ;
#213 = PLANE ( 'NONE',  #63 ) ;
#214 =( LENGTH_UNIT ( ) NAMED_UNIT ( * ) SI_UNIT ( $, .METRE. ) );
#215 = VECTOR ( 'NONE', #304, 39.37007874015748143 ) ;
#216 = AXIS2_PLACEMENT_3D ( 'NONE', #82, #61, #290 ) ;
#217 = EDGE_LOOP ( 'NONE', ( #250, #186, #12, #278 ) ) ;
#218 = PRESENTATION_STYLE_ASSIGNMENT (( #257 ) ) ;
#219 = SURFACE_STYLE_USAGE ( .BOTH. , #20 ) ;
#220 = FILL_AREA_STYLE_COLOUR ( '', #253 ) ;
#221 = SURFACE_STYLE_FILL_AREA ( #31 ) ;
#222 = LINE ( 'NONE', #267, #39 ) ;
#223 = DIRECTION ( 'NONE',  ( -1.000000000000000000, 0.000000000000000000, 0.000000000000000000 ) ) ;
#224 = SHAPE_DEFINITION_REPRESENTATION ( #77, #54 ) ;
#225 = MANIFOLD_SOLID_BREP ( 'Revolve - Cutting Edge', #105 ) ;
#226 =( GEOMETRIC_REPRESENTATION_CONTEXT ( 3 ) GLOBAL_UNCERTAINTY_ASSIGNED_CONTEXT ( ( #289 ) ) GLOBAL_UNIT_ASSIGNED_CONTEXT ( ( #240, #85, #60 ) ) REPRESENTATION_CONTEXT ( 'NONE', 'WORKASPACE' ) );
#227 = APPLICATION_PROTOCOL_DEFINITION ( 'draft international standard', 'automotive_design', 1998, #251 ) ;
#228 = PRODUCT_RELATED_PRODUCT_CATEGORY ( 'part', '', ( #206 ) ) ;
#229 = PRODUCT_DEFINITION_CONTEXT ( 'detailed design', #121, 'design' ) ;
#230 = LENGTH_MEASURE_WITH_UNIT ( LENGTH_MEASURE( 0.02539999999999999897 ), #274 );
#231 = PRESENTATION_LAYER_ASSIGNMENT (  '', '', ( #84 ) ) ;
#232 = ADVANCED_FACE ( 'NONE', ( #287 ), #64, .T. ) ;
#233 = CARTESIAN_POINT ( 'NONE',  ( 0.000000000000000000, 0.7500000000000001110, 0.000000000000000000 ) ) ;
#234 = CIRCLE ( 'NONE', #276, 0.1874999999999998335 ) ;
#235 = DIRECTION ( 'NONE',  ( 0.000000000000000000, -0.000000000000000000, 1.000000000000000000 ) ) ;
#236 = DIRECTION ( 'NONE',  ( 0.000000000000000000, 0.000000000000000000, -1.000000000000000000 ) ) ;
#237 = FACE_OUTER_BOUND ( 'NONE', #92, .T. ) ;
#238 = ORIENTED_EDGE ( 'NONE', *, *, #29, .T. ) ;
#239 = PRESENTATION_LAYER_ASSIGNMENT (  '', '', ( #127 ) ) ;
#240 =( CONVERSION_BASED_UNIT ( 'INCH', #202 ) LENGTH_UNIT ( ) NAMED_UNIT ( #115 ) );
#241 = FILL_AREA_STYLE_COLOUR ( '', #181 ) ;
#242 = FACE_OUTER_BOUND ( 'NONE', #68, .T. ) ;
#243 = CARTESIAN_POINT ( 'NONE',  ( 1.836970198721029688E-16, 2.500000000000000000, 0.000000000000000000 ) ) ;
#244 = UNCERTAINTY_MEASURE_WITH_UNIT (LENGTH_MEASURE( 1.000000000000000082E-05 ), #300, 'distance_accuracy_value', 'NONE');
#245 = FILL_AREA_STYLE_COLOUR ( '', #148 ) ;
#246 =( LENGTH_UNIT ( ) NAMED_UNIT ( * ) SI_UNIT ( $, .METRE. ) );
#247 = COLOUR_RGB ( '',1.000000000000000000, 0.000000000000000000, 0.000000000000000000 ) ;
#248 = DIRECTION ( 'NONE',  ( 1.049697256412016823E-16, 1.000000000000000000, -0.000000000000000000 ) ) ;
#249 =( NAMED_UNIT ( * ) PLANE_ANGLE_UNIT ( ) SI_UNIT ( $, .RADIAN. ) );
#250 = ORIENTED_EDGE ( 'NONE', *, *, #81, .T. ) ;
#251 = APPLICATION_CONTEXT ( 'automotive_design' ) ;
#252 = DIRECTION ( 'NONE',  ( 1.049697256412016823E-16, 1.000000000000000000, -0.000000000000000000 ) ) ;
#253 = COLOUR_RGB ( '',1.000000000000000000, 0.000000000000000000, 0.000000000000000000 ) ;
#254 = SURFACE_SIDE_STYLE ('',( #188 ) ) ;
#255 = EDGE_LOOP ( 'NONE', ( #71, #36 ) ) ;
#256 = CARTESIAN_POINT ( 'NONE',  ( 1.836970198721029688E-16, 2.500000000000000000, 0.000000000000000000 ) ) ;
#257 = SURFACE_STYLE_USAGE ( .BOTH. , #194 ) ;
#258 = FILL_AREA_STYLE_COLOUR ( '', #46 ) ;
#259 = DIRECTION ( 'NONE',  ( 0.000000000000000000, 0.000000000000000000, -1.000000000000000000 ) ) ;
#260 = AXIS2_PLACEMENT_3D ( 'NONE', #55, #24, #236 ) ;
#261 = CYLINDRICAL_SURFACE ( 'NONE', #58, 0.1875000000000000278 ) ;
#262 = SURFACE_STYLE_USAGE ( .BOTH. , #131 ) ;
#263 = MECHANICAL_DESIGN_GEOMETRIC_PRESENTATION_REPRESENTATION (  '', ( #126 ), #83 ) ;
#264 = PRESENTATION_STYLE_ASSIGNMENT (( #262 ) ) ;
#265 = CIRCLE ( 'NONE', #22, 0.1875000000000000278 ) ;
#266 = CARTESIAN_POINT ( 'NONE',  ( 0.000000000000000000, 0.000000000000000000, -0.1875000000000000278 ) ) ;
#267 = CARTESIAN_POINT ( 'NONE',  ( 2.296212748401287726E-17, 0.000000000000000000, 0.1875000000000000278 ) ) ;
#268 = FILL_AREA_STYLE ('',( #241 ) ) ;
#269 = CARTESIAN_POINT ( 'NONE',  ( 1.032997809486483155E-33, 0.7500000000000001110, 0.000000000000000000 ) ) ;
#270 = ORIENTED_EDGE ( 'NONE', *, *, #200, .T. ) ;
#271 = AXIS2_PLACEMENT_3D ( 'NONE', #269, #10, #69 ) ;
#272 = EDGE_CURVE ( 'NONE', #198, #149, #139, .T. ) ;
#273 = DIRECTION ( 'NONE',  ( -1.049697256412016700E-16, -1.000000000000000000, 0.000000000000000000 ) ) ;
#274 =( LENGTH_UNIT ( ) NAMED_UNIT ( * ) SI_UNIT ( $, .METRE. ) );
#275 = DIMENSIONAL_EXPONENTS ( 1.000000000000000000, 0.000000000000000000, 0.000000000000000000, 0.000000000000000000, 0.000000000000000000, 0.000000000000000000, 0.000000000000000000 ) ;
#276 = AXIS2_PLACEMENT_3D ( 'NONE', #130, #178, #175 ) ;
#277 =( NAMED_UNIT ( * ) SI_UNIT ( $, .STERADIAN. ) SOLID_ANGLE_UNIT ( ) );
#278 = ORIENTED_EDGE ( 'NONE', *, *, #165, .F. ) ;
#279 = EDGE_CURVE ( 'NONE', #149, #198, #234, .T. ) ;
#280 = CARTESIAN_POINT ( 'NONE',  ( -0.1874999999999996669, 2.500000000000000000, 0.000000000000000000 ) ) ;
#281 = FILL_AREA_STYLE ('',( #258 ) ) ;
#282 = DIRECTION ( 'NONE',  ( -0.000000000000000000, -1.000000000000000000, -0.000000000000000000 ) ) ;
#283 = SURFACE_STYLE_FILL_AREA ( #125 ) ;
#284 = DIRECTION ( 'NONE',  ( 1.049697256412016700E-16, 1.000000000000000000, -0.000000000000000000 ) ) ;
#285 =( LENGTH_UNIT ( ) NAMED_UNIT ( * ) SI_UNIT ( $, .METRE. ) );
#286 = CARTESIAN_POINT ( 'NONE',  ( -0.1875000000000000278, 0.7499999999999998890, 0.000000000000000000 ) ) ;
#287 = FACE_OUTER_BOUND ( 'NONE', #217, .T. ) ;
#288 = AXIS2_PLACEMENT_3D ( 'NONE', #298, #273, #35 ) ;
#289 = UNCERTAINTY_MEASURE_WITH_UNIT (LENGTH_MEASURE( 1.000000000000000082E-05 ), #240, 'distance_accuracy_value', 'NONE');
#290 = DIRECTION ( 'NONE',  ( -1.000000000000000000, 0.000000000000000000, 0.000000000000000000 ) ) ;
#291 = FILL_AREA_STYLE_COLOUR ( '', #247 ) ;
#292 = ORIENTED_EDGE ( 'NONE', *, *, #153, .F. ) ;
#293 = CARTESIAN_POINT ( 'NONE',  ( 0.000000000000000000, 0.000000000000000000, 0.000000000000000000 ) ) ;
#294 = MECHANICAL_DESIGN_GEOMETRIC_PRESENTATION_REPRESENTATION (  '', ( #108 ), #8 ) ;
#295 = ORIENTED_EDGE ( 'NONE', *, *, #153, .T. ) ;
#296 = CARTESIAN_POINT ( 'NONE',  ( 2.296212748401287726E-17, 0.000000000000000000, 0.1875000000000000278 ) ) ;
#297 = LINE ( 'NONE', #67, #193 ) ;
#298 = CARTESIAN_POINT ( 'NONE',  ( 0.1875000000000000278, 2.500000000000000000, 0.000000000000000000 ) ) ;
#299 = VERTEX_POINT ( 'NONE', #266 ) ;
#300 =( CONVERSION_BASED_UNIT ( 'INCH', #230 ) LENGTH_UNIT ( ) NAMED_UNIT ( #9 ) );
#301 = MECHANICAL_DESIGN_GEOMETRIC_PRESENTATION_REPRESENTATION (  '', ( #187 ), #32 ) ;
#302 = SURFACE_STYLE_FILL_AREA ( #23 ) ;
#303 = AXIS2_PLACEMENT_3D ( 'NONE', #168, #19, #120 ) ;
#304 = DIRECTION ( 'NONE',  ( -0.000000000000000000, -1.000000000000000000, -0.000000000000000000 ) ) ;
#305 = ORIENTED_EDGE ( 'NONE', *, *, #160, .F. ) ;
#306 = DIRECTION ( 'NONE',  ( -0.000000000000000000, -1.000000000000000000, -0.000000000000000000 ) ) ;
#307 = CARTESIAN_POINT ( 'NONE',  ( -0.1874999999999997502, 2.500000000000000000, 0.000000000000000000 ) ) ;
#308 = CIRCLE ( 'NONE', #180, 0.1875000000000000278 ) ;
#309 = COLOUR_RGB ( '',1.000000000000000000, 0.000000000000000000, 0.000000000000000000 ) ;
ENDSEC;
END-ISO-10303-21;
